Photos
Posts

trista pena .

Tablature de guitare updated their cover photo.
Image may contain: one or more people, people playing musical instruments and guitar
Posts

c 'est une chanson arabe dorigine berbere joué par rey othino

Dm / / / Dm / / /
Bb / / / Bb / / /
Gm / / / Gm / / /
Dm/A7/Dm/A7 A7 / / /

...Continue Reading

_______Dm_____Gm
7abeeby ya kol el 7ayah
________A ______Dm
ew3edny ennnnak tefdal ma3aya
__________Bb__Gm______C____F...
matghebsh 3annyyyyy khod alby menny
_______Bb___Gm_____Em7/5-__A
khalik 7adennyyyy le7ad el nehayaaa

_________Dm______Gm
da 3yoono dar ganna we nar
_____Edim7___C7____F____A
de7ket nahaaaaaaaar agmal romoosh
_________Dm_______Gm
shaddoony leeeh wana dobt feeh
_________Edim7__C7_____F___A
ezzay we leeeeeh leeh mates2aloosh

______Dm__________D____Gm
Allah 3aleek wenta wa2ef bain 2edayyaa
_______C_____________Gm______A
de7ket 3eneekk beeha bansa el donya deyaa Allah
______Dm__________D____Gm
Allah 3alaik wenta wa2ef bain 2edayyaa
_______C_____________Gm____A
de7ket 3enekk beeha bansa el donya deyaa

See More

The Gipsy Kings Amor mio
Learn to play "Amor Mio" with online video lessons

E||--------------|--------------------------||----------------------||
B||--------------|--------------------------||----------------------||...
G||-----0--------|--0--0--------------------||*--------------------*||
D||--------------|--------4--4----2----0----||*--------0--2--4--4--*||
A||--2-----------|--------------------------||----------------------||
E||--------------|--------------------------||----------------------||

--------------------------------------||------------------------||
--------------------------------------||------------------------||
--------------------------------------||*----------------------*||
--4--4--2--2----0----0----------------||*-------0--2--4--------*||
--------------------------------------||------------------------||
--------------------------------------||------------------------||

------------------|-----------------------||
------------------|-----------------------||
------------------|-----------------------||
--2--3--5----0----|-------0--2--3----0----||
------------------|-----------------------||
------------------|-----------------------||

See More

First Part of Song (play this x6):
G----------------------|
D--------44--------4---|
A---666----------------|
E----------------------|

...

Second Part of Song (play this x4)
G--------------------------------------|
D----------------44--------------4-4---|
A---6-44-6-4-6-4--------6-666-4-6-6----|
E--------------------------------------|

partition courte et facile

See More

Twilight par the raveonettes

Riff A
e|-------------------------|
B|----8-7-8---7-8-7--------|...
G|--8-------8--------------|
D|-------------------------|
A|-------------------------|
E|-------------------------|

Riff B
e|-------------------------|
B|----9-7-9---7-9-7--------|
G|--8-------8--------------|
D|-------------------------|
A|-------------------------|
E|-------------------------|

Intro is Riff A played 12x
Verse 1 is Riff A 4x, Riff B 2x, Riff A 2x, and then Riff C once

Riff C
e|------------------------------------|
B|---------------9-9-----------7-7----|
G|--8/10-10-8/10-----6/8-8-6/8------8-|
D|----------------------------------8-|
A|----------------------------------6-|
E|------------------------------------|

Verse 2 is the same as Verse 1, but play Riff C 2x

Verse 3 is Riff A 8x, Riff B 2x, Riff A 2x, and Riff C once

Riff D
e|-----------------------------|
B|-----------------------------|
G|--------------------6--------|
D|----8--8--8--8--8-----8---8--|
A|--6--6--6--6--6--6------6----|
E|-----------------------------|

Bridge is Riff D played 4x

Solo
e|--------9-11--11-9-11-9--------------------------------------------|
B|--9-11------------------11-9-11-9--------------9-11-11-9-11-9-11---|
G|----------------------------------11-8----8-11---------------------|
D|-------------------------------------------------------------------|
A|-------------------------------------------------------------------|
E|-------------------------------------------------------------------|

e|-----------9-11-11-9-------------------------------------------|
B|-9-11-9-11-----------11-9-11-9-------------9-11-11-11-9--------|
G|-------------------------------11-8---8-11--------------11-8---|
D|---------------------------------------------------------------|
A|---------------------------------------------------------------|
E|---------------------------------------------------------------|

During the solo, another guitar plays this 3x
e|----------------------------------|
B|----------------------------------|
G|----------------------------------|
D|---4---4---6---6---8---8---8---8--|
A|-2---2---4---4---6---6---6---6----|
E|----------------------------------|

And fourth time through plays
e|--------------------|
B|--------------------|
G|-----------------8--|
D|---4---4---6---6-8--|
A|-2---2---4---4---6--|
E|--------------------|

See More

HEDWIG'S THEME
1) e|---0-3-2-0-7-5-2-|
B|-0---------------|
G|-----------------|
D|-----------------|...

Continue Reading

publiez au lieu de passer en 2 sec chrono
si tout le monde y met un peu du sien les gens viendront plus souvent et d'autres viendront voyant que les gens participent ce sera alors un bon moyen de se procurer des partitions etde de partager des decouvertes et nos conseils

publiez vos tablatures